#----------------------------------PLEASE NOTE---------------------------------#
#This file is the author's own work and represents their interpretation of the #
#song. You may only use this file for private study, scholarship, or research. #
#------------------------------------------------------------------------------#

CALCETIN CON ROMBOS MAN
As recorded by Socrates
(Released as a Single in 2007)

Transcribed by Socrates

Words and Music by 31 minutos


Gtr I (Eb Ab Db Gb Bb Eb) - 'Socrates'

  Q=155
 4/4
  Gtr I
   |-----3-----|     |-----3-----|
   Q     Q     Q     Q     Q     Q
|-------------------------------------|
|-12----12----12----12----12----12----|
|-14b16-14b16-14b16-14b16-14b16-14b16-|
|-------------------------------------|
|-------------------------------------|
|-------------------------------------|


  E +E     E E E E E a E   +E   E E E  E a E E E
|------------------------|------------------------|
|------------------------|-----12-----12----------|
|-9-(9)b11r9p7-9p7-------|-----11-----11-----7-9--|
|--------------------7s9-|-(9)--9-9-9--9-7s9------|
|------------------------|------------------------|
|------------------------|------------------------|


  E +E     E E E  E E a  E    +E   E E E  E E E E
|--------------------------|----------------------|
|----------------10--------|------12-----12-------|
|-9-(9)b11r9p7-9------9s11-|-(11)-11-----11---7-9-|
|--------------------------|-------9-9-9--9-9-----|
|--------------------------|----------------------|
|--------------------------|----------------------|


  E +E     E E E E E a E   +E   E E E  E a  E  E  E
|------------------------|---------------------------|
|------------------------|-----12-----12------10-12--|
|-9-(9)b11r9p7-9p7-------|-----11-----11-9s11--------|
|--------------------7s9-|-(9)--9-9-9--9-------------|
|------------------------|---------------------------|
|------------------------|---------------------------|


                                   ~~~~
   E  E  E  E  E     +E   E  E    +W
|-10----10-12-12b14r(12)p10----|---------|
|----12---------------------12-|-(12)----|
|------------------------------|---------|
|------------------------------|---------|
|------------------------------|---------|
|------------------------------|---------|


   Q      E  E  E  E  +Q     W       Q      E  E  E  E  +Q     W
|-14-----------------------|------|-14-----------------------|------|
|-17b19--17-15-17-15-(15)--|------|-17b19--17-15----15-(15)--|------|
|--------------------------|------|--------------16----------|------|
|--------------------------|------|--------------------------|------|
|--------------------------|------|--------------------------|------|
|--------------------------|------|--------------------------|------|


   Q      E  E  E  E  +Q     H  E       E  E  E
|-14-----------------------|--------------------|
|-17b19--17-15-17-15-(15)--|--------------15-17-|
|--------------------------|----------/16-------|
|--------------------------|--------------------|
|--------------------------|--------------------|
|--------------------------|--------------------|


   ~~
   Q   E  E  E  E  E  E    +W
|-----------------------|---------|
|-----------------15----|---------|
|-16--14----14-16----16-|-(16)----|
|--------16-------------|---------|
|-----------------------|---------|
|-----------------------|---------|


  E +E     E E E E E a E   +E   E E E  E a E E E
|------------------------|-----------------------|
|------------------------|-----12-----12---------|
|-9-(9)b11r9p7-9p7-------|-----11-----11-----7-9-|
|--------------------7s9-|-(9)--9-9-9--9-7s9-----|
|------------------------|-----------------------|
|------------------------|-----------------------|


  E +E     E E E  E E a  E    +E   E E E  E E E E
|--------------------------|-----------------------|
|----------------10--------|------12-----12--------|
|-9-(9)b11r9p7-9------9s11-|-(11)-11-----11---7-9--|
|--------------------------|-------9-9-9--9-9------|
|--------------------------|-----------------------|
|--------------------------|-----------------------|


  E +E     E E E E E a E   +E   E E E  E a  E  E  E
|------------------------|--------------------------|
|------------------------|-----12-----12------10-12-|
|-9-(9)b11r9p7-9p7-------|-----11-----11-9s11-------|
|--------------------7s9-|-(9)--9-9-9--9------------|
|------------------------|--------------------------|
|------------------------|--------------------------|


                                   ~~~~
   E  E  E  E  E     +E   E  E    +W
|-10----10-12-12b14r(12)p10----|---------|
|----12---------------------12-|-(12)----|
|------------------------------|---------|
|------------------------------|---------|
|------------------------------|---------|
|------------------------------|---------|


  W          W           Q     Q   Q     Q     Q      Q  H
|----------|----------|--7---------7--------|--7\-------------|
|----------|----------|-10b12-----10b12-----|-10b12\----------|
|----------|----------|---------------------|-----------------|
|----------|----------|---------------------|-----------------|
|-7--------|-8--------|---------------------|-----------------|
|-5--------|-6--------|---------------------|-----------------|



Duration Legend
---------------
W - whole; H - half; Q - quarter; E - 8th; S - 16th; T - 32nd; X - 64th; a - acciaccatura
+ - note tied to previous; . - note dotted; .. - note double dotted
Uncapitalized letters represent notes that are staccato (1/2 duration)
Irregular groupings are notated above the duration line
Duration letters will always appear directly above the note/fret number it represents the
duration for.  Duration letters with no fret number below them represent rests.  Multi-
bar rests are notated in the form Wxn, where n is the number of bars to rest for.  Low
melody durations appear below the staff

Tablature Legend
----------------
 h   - hammer-on
 p   - pull-off
 b   - bend
 pb  - pre-bend
 r   - bend release (if no number after the r, then release immediately)
 /\  - slide into or out of (from/to "nowhere")
 s   - legato slide
 S   - shift slide
<n> - natural harmonic
[n]  - artificial harmonic
n(n) - tapped harmonic
 ~   - vibrato
 tr  - trill
 T   - tap
 TP  - trem. picking
 PM  - palm muting
\n/  - tremolo bar dip; n = amount to dip
 \n  - tremolo bar down
 n/  - tremolo bar up
/n\  - tremolo bar inverted dip
 =   - hold bend; also acts as connecting device for hammers/pulls
 <> - volume swell (louder/softer)
 x   - on rhythm slash represents muted slash
 o   - on rhythm slash represents single note slash

Misc Legend
-----------
 |  - bar
||  - double bar
||o - repeat start
o|| - repeat end
*|  - double bar (ending)
 :  - bar (freetime)
 $  - Segno
 &  - Coda
Tempo markers - <E/E./Q/Q./H/H.> = BPM(8/16=s8/s16), where s8 = swing 8ths, s16 = swing 16ths


** Generated using Power Tab Editor by Brad Larsen: The Official Power Tab Web Site